首页 arrow 吉他谱 arrow i just called to say i love you - stevie wonder
曲谱搜索
关键词: 小提琴 violin 中提琴 Viola 大提琴 Cello 低音提琴 Double Bass 钢琴 Piano 竖琴 Harp 风琴 Organ 吉他 Guitar 双簧管 Oboe 长号 Trombone 长笛 Flute Classical 古典 Jazz 爵士 Romantic 浪漫 Song 歌 serenade 小夜曲 concerto 协奏曲 solo 独奏曲
分类:排序:
任意关键词 所有关键词 精确短语

华声提琴 专业制作、修理、销售高档纯手工提琴 收售欧洲老琴 电话:010-89352180
i just called to say i love you - stevie wonder 打印 E-mail

i just called to say i love you - stevie wonder
吉他谱 吉他曲谱 吉他乐谱 吉他谱下载 曲谱下载 音乐下载

歌曲名称 - 歌手乐队(作曲者): i just called to say i love you - stevie wonder

e:-------------------------------------------------------------|
B:-1--1-1--1--1--1-1--1--1--1-1--1--1--1-1--1--1--1-1--1--1--1-|
G:-0--0-0--0--0--0-0--0--0--0-0--0--0--0-0--0--0--0-0--0--0--0-|
D:-2--2-2--2--2--2-2--2--2--2-2--2--2--2-2--2--2--2-2--2--2--2-|
A:-3--3-3--3--3--3-3--3--3--3-3--3--3--3-3--3--3--3-3--3--3--3-|
E:-------------------------------------------------------------|


no new years day, to celebrate...
e:-------------------------------------------------------------|
B:-1--1-1--1--1--1-1--1--1--1-1--1--1--1-1--1--1--1-1--1--1--1-|
G:-0--0-0--0--0--0-0--0--0--0-0--0--0--0-0--0--0--0-0--0--0--0-|
D:-2--2-2--2--2--2-2--2--2--2-2--2--2--2-2--2--2--2-2--2--2--2-|
A:-3--3-3--3--3--3-3--3--3--3-3--3--3--3-3--3--3--3-3--3--3--3-|
E:-------------------------------------------------------------|

  to give away...        no first of
:-3-3-3-3-3-3-3-3-3-3-3-3-3-3-3-3-3-3-3-3-|
:-3-3-3-3-3-3-3-3-3-3-3-3-3-3-3-3-3-3-3-3-|
:-0-0-0-0-0-0-0-0-0-0-0-0-0-0-0-0-0-0-0-0-|
:-0-0-0-0-0-0-0-0-0-0-0-0-0-0-0-0-0-0-0-0-|
:-2-2-2-2-2-2-2-2-2-2-2-2-2-2-2-2-2-2-2-2-|
:-3-3-3-3-3-3-3-3-3-3-3-3-3-3-3-3-3-3-3-3-|

  spring               no sun to see                           in fact
e:-2-2-2-2-2-2-2-2-2-2-2-2-------------------------------------------|
B:-3-3-3-3-3-3-3-3-3-3-3-3--1-1-1-1-1-1-1-1-1-1-1--1-1-1-1-1-1-1-1-1-|
G:-2-2-2-2-2-2-2-2-2-2-2-2--2-2-2-2-2-2-2-2-2-2-2--0-0-0-0-0-0-0-0-0-|
D:-0-0-0-0-0-0-0-0-0-0-0-0--2-2-2-2-2-2-2-2-2-2-2--2-2-2-2-2-2-2-2-2-|
A:--------------------------0-0-0-0-0-0-0-0-0-0-0--3-3-3-3-3-3-3-3-3-|
E:-------------------------------------------------------------------|

   is just another          ordinary              day
e:-2-2-2-2-2-2-2-2-2-2-2-2-------------------------------------------|
B:-3-3-3-3-3-3-3-3-3-3-3-3--1-1-1-1-1-1-1-1-1-1-1--1-1-1-1-1-1-1-1-1-|
G:-2-2-2-2-2-2-2-2-2-2-2-2--2-2-2-2-2-2-2-2-2-2-2--0-0-0-0-0-0-0-0-0-|
D:-0-0-0-0-0-0-0-0-0-0-0-0--2-2-2-2-2-2-2-2-2-2-2--2-2-2-2-2-2-2-2-2-|
A:--------------------------0-0-0-0-0-0-0-0-0-0-0--3-3-3-3-3-3-3-3-3-|
E:-------------------------------------------------------------------|

   no april range no flowers bloom....
e:-------------------------------------------------------------|
B:-1--1-1--1--1--1-1--1--1--1-1--1--1--1-1--1--1--1-1--1--1--1-|
G:-0--0-0--0--0--0-0--0--0--0-0--0--0--0-0--0--0--0-0--0--0--0-|
D:-2--2-2--2--2--2-2--2--2--2-2--2--2--2-2--2--2--2-2--2--2--2-|
A:-3--3-3--3--3--3-3--3--3--3-3--3--3--3-3--3--3--3-3--3--3--3-|
E:-------------------------------------------------------------|

  month of doom...        but what it
:-3-3-3-3-3-3-3-3-3-3-3-3-3-3-3-3-3-3-3-3-|
:-3-3-3-3-3-3-3-3-3-3-3-3-3-3-3-3-3-3-3-3-|
:-0-0-0-0-0-0-0-0-0-0-0-0-0-0-0-0-0-0-0-0-|
:-0-0-0-0-0-0-0-0-0-0-0-0-0-0-0-0-0-0-0-0-|
:-2-2-2-2-2-2-2-2-2-2-2-2-2-2-2-2-2-2-2-2-|
:-3-3-3-3-3-3-3-3-3-3-3-3-3-3-3-3-3-3-3-3-|

  is                  is something true                        made up
e:-2-2-2-2-2-2-2-2-2-2-2-2-------------------------------------------|
B:-3-3-3-3-3-3-3-3-3-3-3-3--1-1-1-1-1-1-1-1-1-1-1--1-1-1-1-1-1-1-1-1-|
G:-2-2-2-2-2-2-2-2-2-2-2-2--2-2-2-2-2-2-2-2-2-2-2--0-0-0-0-0-0-0-0-0-|
D:-0-0-0-0-0-0-0-0-0-0-0-0--2-2-2-2-2-2-2-2-2-2-2--2-2-2-2-2-2-2-2-2-|
A:--------------------------0-0-0-0-0-0-0-0-0-0-0--3-3-3-3-3-3-3-3-3-|
E:-------------------------------------------------------------------|

   this 3 words            that i must say   to  you
e:-2-2-2-2-2-2-2-2-2-2-2-2-------------------------------------------|
B:-3-3-3-3-3-3-3-3-3-3-3-3--1-1-1-1-1-1-1-1-1-1-1--1-1-1-1-1-1-1-1-1-|
G:-2-2-2-2-2-2-2-2-2-2-2-2--2-2-2-2-2-2-2-2-2-2-2--0-0-0-0-0-0-0-0-0-|
D:-0-0-0-0-0-0-0-0-0-0-0-0--2-2-2-2-2-2-2-2-2-2-2--2-2-2-2-2-2-2-2-2-|
A:--------------------------0-0-0-0-0-0-0-0-0-0-0--3-3-3-3-3-3-3-3-3-|
E:-------------------------------------------------------------------|

  i just call         to say          i love you
e:------------0-0-0-0-0-0------2-2-2-2-2-3-3-3-3-3-3-3-3-3-3-|
B:-1--1-------1-1-1-1-1-1---3--3-3-3-3-3-3-3-3-3-3-3-3-3-3-3-|
G:-0--0---2---2-2-2-2-2-2---2--2-2-2-2-2-0-0-0-0-0-0-0-0-0-0-|
D:-2--2---2---2-2-2-2-2-2---0--0-0-0-0-0-0-0-0-0-0-0-0-0-0-0-|
A:-3--3---0---0-0-0-0-0-0----------------2-2-2-2-2-2-2-2-2-2-|
E:---------------------------------------3-3-3-3-3-3-3-3-3-3-|

      i  just call        to say  how much i care
e:-3-3-3-3-3---------------------2-2-2-2-2-2-3-3-3-3-3-3-3-3-3-|
B:-3-3-3-3-3--1-1-1-1-1-1-1--3---3-3-3-3-3-3-3-3-3-3-3-3-3-3-3-|
G:-0-0-0-0-0--0-0-0-0-0-0-0--2---2-2-2-2-2-2-0-0-0-0-0-0-0-0-0-|
D:-0-0-0-0-0--2-2-2-2-2-2-2--0---0-0-0-0-0-0-0-0-0-0-0-0-0-0-0-|
A:-2-2-2-2-2--3-3-3-3-3-3-3------------------2-2-2-2-2-2-2-2-2-|
E:-3-3-3-3-3---------------------------------3-3-3-3-3-3-3-3-3-|


   i just call         to say          i love you
e:-3-3-3-------------0-0-0-0-0-0------2-2-2-2-2-3-3-3-3-3-3-3-3-3-3-|
B:-3-3-3--1--1-------1-1-1-1-1-1---3--3-3-3-3-3-3-3-3-3-3-3-3-3-3-3-|
G:-0-0-0--0--0---2---2-2-2-2-2-2---2--2-2-2-2-2-0-0-0-0-0-0-0-0-0-0-|
D:-0-0-0--2--2---2---2-2-2-2-2-2---0--0-0-0-0-0-0-0-0-0-0-0-0-0-0-0-|
A:-2-2-2--3--3---0---0-0-0-0-0-0----------------2-2-2-2-2-2-2-2-2-2-|
E:-3-3-3----------------------------------------3-3-3-3-3-3-3-3-3-3-|

      i  mean it       from the bottom of my heart  
e:-3-3-3-3-3---------------------2-2-2-2-2-2-3-3-3-3-3-3-3-3-3-|
B:-3-3-3-3-3--1-1-1-1-1-1-1--3---3-3-3-3-3-3-3-3-3-3-3-3-3-3-3-|
G:-0-0-0-0-0--0-0-0-0-0-0-0--2---2-2-2-2-2-2-0-0-0-0-0-0-0-0-0-|
D:-0-0-0-0-0--2-2-2-2-2-2-2--0---0-0-0-0-0-0-0-0-0-0-0-0-0-0-0-|
A:-2-2-2-2-2--3-3-3-3-3-3-3------------------2-2-2-2-2-2-2-2-2-|
E:-3-3-3-3-3---------------------------------3-3-3-3-3-3-3-3-3-|
藏琴展示
手工新琴 大提琴 nice cello No.XD046 价格22000元
手工新琴 大提琴 nice cello No.XD046 价格22000元
斯式小提琴 手工新琴 violin No.XX055 价格1.6万元
斯式小提琴 手工新琴 violin No.XX055 价格1.6万元
站点导航
曲谱下载
吉他谱 吉他曲谱
Copyright 2005 soqin.com All rights reserved.     京ICP备06004044号